T+ T-

5nizza - Весна

Вступление: {_Cm}{ }{_D}{ }{_Gm}{ }{_D#}

Показать табы

Основные аккорды:
E|-3-----|-2-----|-------|-6--------6-|
B|-4-4---|-3-3---|-3-----|-6-6------8-|
G|-5-5-5-|-2-2-2-|-3-3---|-7-7-7----7-|
D|---5-5-|---0-0-|-5-5-5-|---8-8----8-|
A|-----3-|-----0-|---5-5-|-----6----6-|
E|-------|-------|-----3-|----------6-|

{Cm}Улица длится, длится, не спится,
{D}Засыпаю — не могу остановиться,
{Gm}Зажигаю, наблюдаю за собой там,
Со стороны. Раны{D#}

{Cm}Не зажили, долго кружили.
{D}Кто? Снова тени ожили.
{Gm}Были, любили, забыли, оставили
Там.{D#}

{Cm}Я не вернусь и снова не будет
{D}Весны.
{Gm}Я поднимусь, я уже не боюсь
Высоты-ы-ы-ы.{D#}

{Cm}Я не хочу чтобы ты,
{D}Я не хочу чтобы я,
{Gm}Часами, словами, весами грузили
{D#}Себя.

Ту-ту-ту{Cm}
Ту-ту-ту{D}
Ту-ту-ту{Gm}
Ту-ту-ту{D#}
Ту-ту-ту-ту-ту{Cm}
Ту-ту-ту{D}

{Cm}Ночь наступает на пятки,
{D}Звуки играют в прятки.
{Gm}Сладкие взятки прячуться их
Не достать, до них не добр{D#}аться

{Cm}Можно смеяться, не приземляться.{D}
{Gm}Трудно понять, легко догадаться.{D#}

{Cm}Нет не отнять того что бы было,
{D}Опять догонять, время не ждать
{Gm}Можно сгореть, не успеть, не допеть,
Не догнать, не узнать, {D#}потеряться.

{Cm}Можно смеяться, не приземляться.{D}
{Gm}Трудно понять, легко догадаться.{D#}

{Cm}Я не вернусь и снова не будет
Весны.{D}
{Gm}Я поднимусь, я уже не боюсь
Высоты-ы-ы-ы.{D#}

{Cm}Я не хочу чтобы ты,
{D}Я не хочу чтобы я,
{Gm}Часами, словами, весами грузили
Себя.{D#}

Ту-ту-ту{Cm}
Ту-ту-ту{D}
Ту-ту-ту{Gm}
Ту-ту-ту{D#}
Ту-ту-ту-ту-ту{Cm}
Ту-ту-ту{D}

{Cm}На ответы у меня есть вопросы,
{D}Папиросы распросы, спроси меня:
{Gm}Где ты? — Нигде, я иду никуда.
Да, горят провода, это{D#}

{Cm}Правда. Сухая вода,
{D}Бесконечная нота. Спроси меня:
{Gm}Кто ты? — Никто, но я здесь
Навсегда.{D#}

{Cm}Я же вернусь и снова наступит
{D}Весна.
{Gm}Когда я проснусь, я узнаю —
Тебе не до сна-а-а-а{D#}

{Cm}Я так хочу чтобы ты,
{D}Я так хочу чтобы я,
{Gm}Дышали одной тишиной и не видели
Дня.{D#}

{Cm}Я так хочу чтобы ты,
{D}Я так хочу чтобы я,
{Gm}Ту-ту-ту
Ту-ту-ту{D#}
Ту-ту-ту-ту-ту{Cm}
Ту-ту-ту{D}

                 
E|--------------------------------------|
B|--------------------------------------|
G|---5---5---5--5------7---7---7--7-----|
D|---5---5---5--5------7---7---7--7-----|
A|-0-------0---------5-------5----------|
E|-----0-------0---------5-------5------|
                   
E|--------------------------------------|
B|--------------------------------------|
G|---3---3---3--3------8---8---8--8-----|
D|---5---5---5--5------8---8---8--8-----|
A|-----3-------3-----6-------6----------|
E|-3-------3-------------6-------6------|

Дышали одной тишиной и не видели
Дня-а-а. А-а-а
Я так хочу чтобы ты,
Я так хочу чтобы я,
Дышали одной тишиной и не видели
Дня-а-а-а-а-а.

                   
E|--------------------------------------|
B|--------------------------------------|
G|-7---6---6---6--6-7---8---8---8--8----|
D|-7---6---6---6--6-7---8---8---8--8----|
A|---4-------4--------6---6-------------|
E|-------4-------4------------6---6-----|

А-а-а. Я же вернусь и снова наступит
Весна. А-а-а.
Я же вернусь и снова наступит
Весна-а. А-а-а. А-а-а.

Я же вернусь и снова наступит
Весна-а. А-а-а.

   

Комментарий автора:

Можно играть боем, тоже красиво: {_Cm} - вниз, вверх, вверх, вниз, { }вверх, вверх, вниз {_D} - вниз, вверх, вверх, вниз, { }вверх, вверх, вниз {_Gm} - вниз, вверх, вверх, вниз, { }вверх, вверх, вниз {_D#} - вниз, вверх, вверх, вниз, { }вверх, вверх, при ударе вниз (зажать вторую струну на 8 ладу мизинцем), вверх.

Аккорды для этой композиции

подобраны автором lexist

Раскрыть

Читать описание композиции

Видео-разбор

guest
0 комментариев
Inline Feedbacks
View all comments

Send
0
Would love your thoughts, please comment.x
()
x