T+ T-

Ария - Беспечный ангел

Вступление: 
           Em              C               G               G
|----------------------------------------------------------------------------|
|------------------0-------------1---------------3---------------3-----------|
|----------------0---0---------0-----0---0-----0-----0---0-----0-------------|
|--------0-----2-------2-----2-----2---2-----0-----0---0-----0---------------|
|----0-2-----2-----------2-3-------------------------------------------------|
|--3-------0-------------------------------3---------------3-----------------|

           Em              C               G               G
|------------------------------------------------------------------3---------|
|------------------0-------------1---------------3---------------0---0-------|
|----------------0---0---------0-----0---0-----0-----0---0-----0-------0-----|
|--------0-----2-------2-----2-----2---2-----0-----0---0-----0-----------0---|
|----0-2-----2-----------2-3-------------------------------------------------|
|--3-------0-------------------------------3---------------3---------------3-|

Показать табы

Куплет:

Этот парень {Em}был из тех
Кто {C}просто любит ж{G}изнь
Любит праздники и {Em}громкий смех
П{C}ыль дорог и {D}ветра свист.
Он был в{Am}езде и всег{G}да своим
Вл{D}юблял в себя целый {Am}свет
И г{D}нал свой Байк, а {Em}не лимузин
Таких {C}друзей больше н{D}ет…

 

И в гостинной {Em}при свечах
Он т{C}анцевал, как {G}бог
Но зато менялся на {Em}глазах
То{C}лько вспомн{D}ит шум дорог
Все что им{Am}ел — тут {G}же тратил
И з{D}а порог сделав ша{Am}г
Он {D}вдруг давал кома{Em}нду братьям
Вверх {C}поднимая кул{D}ак…

Припев:

Ты летящий вд{Em}аль, вд{C}аль А{D}нгел,
Ты летящ{C}ий вд{H7}аль, вд{Em}аль Ангел…
{C}Ты один только друг {D}- друг на все времена
{C}Не много таких ср{D}еди нас…
Ты летящ{Am}ий вда{C}ль Беспечн{G}ый Ангел.

Куплет:

Под гитарный {Em}жесткий Рок
Кот{C}орый так люб{G}ил
На Харлее он домч{Em}ать нас мог
Д{C}о небес и зв{D}езд любых.
Но он исч{Am}ез и никто {G}не знал
Куд{D}а теперь мчит его {Am}байк
Оди{D}н бродяга нам ск{Em}азал
Что о{C}н отправился в р{D}ай!

Припев:

Ты летящий вд{Em}аль, вд{C}аль А{D}нгел,
Ты летящ{C}ий вд{H7}аль, вд{Em}аль Ангел…
Н{C}о он стал союзником {D}рая в ту ночь
{C}Бросив тебя одн{D}ого…
Ты летящ{Am}ий вда{C}ль Беспечн{G}ый Ангел.
Ты летящ{Am}ий вда{C}ль Беспечн{D}ый Ангел…

Аккорды для этой композиции

подобраны автором dragon

Раскрыть

Читать описание композиции

Видео-разбор

guest
0 комментариев
Inline Feedbacks
View all comments

Send
0
Would love your thoughts, please comment.x
()
x