T+ T-

Братья Карамазовы - Кто я тебе?

1|--3--------3--------3--|
2|--3--------3--------3--|
3|--4--5--4--4--5--4--4--|
4|--5--------5--------5--|
5|--5--------5--------5--|
6|--3--------3--------3--|

Показать табы

Вступление:{ }{_G}

Куплет:

{G}Брат, родимый, где наши рельсы,
{Hm}Которые ведут домой
{C}Длинные иглы, слюнявые рты
{G}Снова напомнят не о той

 

{G}А утро снова глупее чем вечер
{Hm}О, Боже, как мне тебя не хватает
{C}Когда в себя я вливаю вечность
{G}Любовь отступает

Припев:

{C}Кто я тебе?{Em}
{C}Кто я тебе?{G}
{C}Кто я тебе?{Em}
{C}Кто я тебе?{G}
{G}Хочу домой…

Куплет:

{G}Брат, родимый, пригнись — здесь низко
{Hm}Рыдают тучи, да прямо в темя
{C}Бросают снегом, в присыпку — солью
{G}Кончают время

 

{G}А волчья сырость вползает в душу
{Hm}И как сберечься, чтоб не сорваться
{C}И только ветер — свежак последний
{G}Даст удержаться

Припев:

{C}Кто я тебе?{Em}
{C}Кто я тебе?{G}
{C}Кто я тебе?{Em}
{C}Кто я тебе?{G}
{G}Хочу домой…

Завершение:
1|--3--------3--------3--|
2|--3--------3--------3--|
3|--4--5--4--4--5--4--4--|
4|--5--------5--------5--|
5|--5--------5--------5--|
6|--3--------3--------3--|

Показать табы

Аккорды для этой композиции

подобраны автором dragon

Раскрыть

Читать описание композиции

Видео-разбор

Другие песни исполнителя

Флаг
avatar

Send