T+ T-

BRUTTO - 12 обезьян

Вступление: {_Gm}{      }{_D#}{      }{_F}(VIII){     }{_A#}(VI)
                                                      1-ый раз              2-ой раз
1)-----------------------------------------------|----------6/8-------|-------6/8-6---------
2)-----3----3----------4----4----------6----6----|-----6--------6-----|-----6-------7---7---
3)---3----3----3-----3----3----3-----5----5----5-|---7---7--------7---|---7-----------8-----
4)-5----5----5-----5----5----5-----7----7----7---|-8----------------8-|-8-------------------

Куплет:                                                                 
Часть 1-3                                                                   
1)--------------------------------------------------------------------  
2)-----3----3----------4----4----------1----1----------3-------3------  
3)---3----3----3-----3----3----3-----2----2----2-----3---3-3/5---5-3--  
4)-5----5----5-----5----5----5-----3----3----3-----3------------------  

Проигрыш:
1)--------------------------------
2)-----3----3----------3----3-----
3)---3----3----3-----3----3----3--
4)-5----5----5-----5----5----5----

Часть 4
1)-----------------------------------------------|----------6/8-------
2)-----3----3----------4----4----------6----6----|-----6--------6-----
3)---3----3----3-----3----3----3-----5----5----5-|---7---7--------7---
4)-5----5----5-----5----5----5-----7----7----7---|-8----------------8-

Показать табы

Куплет:

Ме{Gm}чтаешь изменить {D#}безумный мир,{ }{F}
Чувствуешь се{A#}бя волшебным королем,{Gm}
Принимаешь с кос{D#}моса эфир{ }{F}
Радугой цвет{A#}ной, серебряным дождем.{Gm}

Ан{Gm}гелы играют н{D#}а трубе,{ }{F}
Торжественно {A#}звучат мажорные лады,{Gm}
Ты веришь в {D#}независимый Тибет,{ }{F}
Латинский ком{A#}мунизм и райские сады.{Gm}

Припев:

{Gm}О-о-о{D#} Молодо{F}сть и ра{A#}дость,
{Gm}О-о-о{D#} Ты гла{F}вный па{A#}ртизан.
{Gm}О-о-о{D#} Анархи{F}я и ярос{A#}ть
{Gm}О-о-о{D#} Двен{F}адцать об{A#}езьян.{A}
Проигрыш….

Куплет:

Ты{Gm} веришь, что {D#}звезда в твоей руке{ }{F}
Способна разб{A#}удить горячие сердца.{Gm}
Город Чевенгу{D#}р на золотом песке -{ }{F}
Хрустальная м{A#}ечта идейного борца.{Gm}

Ма{Gm}ленький Гавро{D#}ш, наивный принц -{ }{F}
Для тебя борь{A#}ба, как карнавал.{Gm}
Ты искал сво{D#}боду без границ,{ }{F}
Ты на баррика{A#}дах пел и танцевал.{Gm}

Припев:

{Gm}О-о-о{D#} Молодо{F}сть и ра{A#}дость,
{Gm}О-о-о{D#} Ты гла{F}вный па{A#}ртизан.
{Gm}О-о-о{D#} Анархи{F}я и ярос{A#}ть
{Gm}О-о-о{D#} Двен{F}адцать об{A#}езьян.{A}

Проигрыш 2:
             Хей!            Хей!            Хей!          Хей!
3)-7-7-7-7-7-6------------------------------------------------
4)-8-8-8-8-8-7------------------------------------------------
5)-8-8-8-8-8-7------5-5-5-5-5------8-8-8-8-8------5-5-5-5-5---
6)-6-6-6-6-6-5------3-3-3-3-3------6-6-6-6-6------3-3-3-3-3---

Припев(Перебор):
3)----------------8----------10-----------------------
4)-----5--------8---8-----10----10-------8------------
5)---5---5----6---------8--------------8---8----------
6)-3---------------------------------6----------------

Показать табы

Припев:

{Gm}О-о-о{D#} Молодо{F}сть и ра{A#}дость,
{Gm}О-о-о{D#} Ты гла{F}вный па{A#}ртизан.
{Gm}О-о-о{D#} Анархи{F}я и ярос{A#}ть
{Gm}О-о-о{D#} Двен{F}адцать об{A#}езьян.{A}

Припев: x2 (играем боем)

{Gm}О-о-о{D#} Молодо{F}сть и ра{A#}дость,
{Gm}О-о-о{D#} Ты гла{F}вный па{A#}ртизан.
{Gm}О-о-о{D#} Анархи{F}я и ярос{A#}ть
{Gm}О-о-о{D#} Двен{F}адцать об{A#}езьян.{A}

Аккорды для этой композиции

подобраны автором lexist

Раскрыть

Читать описание композиции

Видео-разбор

avatar

Send