T+ T-

Бумбокс - Я твой

Вступление:
1|----------------------------------------------------------------|
2|----------------------------------------------------------------|
3|----------------------------------------------------------------|
4|-4-----------4----------------------4-------------4-------------|
5|---2-0-2--0---2-0-2--0-4-0-5-0-----2-0-2--0----2-0-2--0-4-0-5-0-|
6|----------------------------------------------------------------|

1|----------------------------------------------------------------|
2|----------------------------------------------------------------|
3|----------------------------------------------------------------|
4|--5-4-0-2--0----------------------5-4-0-2--0--------------------|
5|-----------------0-2---0-4-0-5-0----------------0-2---0-4-0-5-0-|
6|----------------------------------------------------------------|

Показать табы

Куплет:

{Hm}Выбирай: запоминать или стереть
Что еще преодолеть? я всё смогу
{G}Поражений больше нет, и нет побед
От себя бегу, к тебе, к себе бегу
{Hm}От количества преград виднее цель
Цитадель такую приступом не взять
{G}Улыбается тридцатый мой апрель
Если скажешь мне летать, сумею летать

 

Проигрыш:{ }{_Hm}{ }{_G}

Куплет:

{Hm}всё не важно, как-куда, сюжет простой
одиночества наелся досыта
{G}маски сброшены. я верю, что ты — та
ты — та самая моя, я — твой

Припев:

{G}Подбира{A}ть сл{Hm}ова бы{D}ло не{G}когда
Отступа{A}ть, беж{Hm}ать назад
Просто {Hm}некуда — {D}да -{F#} а{ }{G}
Если т{A}ы со {Hm}мной,
Я прини{D}маю б{G}ой
Хочешь, {F#}буду т{Hm}вой
{G}Я тво{Hm}й{ }{G}

Куплет:

{Hm}нет, о многом я тебя не попрошу
просто будь собою и со мною будь
{G}кто сегодня победит, не в этом суть
заводи мотор — и в путь. куда-нибудь
{Hm}всё не важно, как-куда, сюжет простой
одиночества наелся досыта
{G}маски сброшены. я верю, что ты — та
ты — та самая моя, я — твой

Припев (4 раза):

{G}Подбира{A}ть сл{Hm}ова бы{D}ло не{G}когда
Отступа{A}ть, беж{Hm}ать назад
Просто {Hm}некуда — {D}да -{F#} а{ }{G}
Если т{A}ы со {Hm}мной,
Я прини{D}маю б{G}ой
Хочешь, {F#}буду т{Hm}вой
{G}Я тво{Hm}й{ }{G}

Аккорды для этой композиции

подобраны автором dragon

Раскрыть

Читать описание композиции

Видео-разбор

guest
0 комментариев
Inline Feedbacks
View all comments

Send
0
Would love your thoughts, please comment.x
()
x