T+ T-

Дима Монатик - Важно

Перебор для вступления:
      D#maj               Gm               Dm
1|-----------------------------3---------------5------|
2|-----------7-----7-----------------------7-------7--|
3|-------6-------6----------3------------7---7---7----|
4|-----7---7---7---------5-------------7--------------|
5|--6-------------------------------5-----------------|
6|---------------------3------------------------------|

Перебор для вступления

Вступление:

{D#maj}Дни что на дне, помоги достать {Gm}мне И я помогу тебе
{Dm}Важно, видеть что то хорошее…
{D#maj}Дни что на дне, помоги достать {Gm}мне И я помогу тебе
{Dm}Важно…

Куплет:

{D#}Эти миллиарды километров
{Gm}Пролетели как-то незаметно, {Dm7}а-а
{Dm7}Сколько там еще впереди, м-м
{D#}Миллионы зеленых президентов
{Gm}Сведут с ума людей всех континентов, {Dm7}а-а,
{Dm7}Важно ли их найти.

 

{D#}Важно, не потерять веру в а{Gm}нгелов, что на плечах,
{Dm}Важно, видеть свет, даже закрывая глаза,
{D#}Важно, слышать шум и счасть{Gm}я слезу
{Dm}Не нарочную, важно,
Важно, видеть что-то хорошее, оу-е!

Припев:

{D#}Видеть что-то хорошее, {Gm}оу-е, в себе, {Dm}важно!
{Dm}Не стоит прятать, не стоит, {D#}оу-е!
{D#}Видеть что-то хорошее, {Gm}оу-е, в себе и {Dm}в нас, важно!
{Dm}Не стоит прятать, даешь хоро{D#}шее на показ?!
{D#}А-а-а{Gm}!{ }{Dm}Важно!
{D#}А-а-а{Gm}!{ }{Dm}Важно!

Куплет:

{D#}Куда бы не летел, я буду помнить тебя.
{Gm}Белые флаги поломаны благодаря, {Dm7}а-у…
{Dm7}Вот этому внутри тебя, о-у
{D#}Меня люди не всегда понимают, знаешь,
{Gm}Это не важно, ты тоже много мечтаеш{Dm7}ь,
{Dm7}А кто не понял — пусть молчит, т-щ-щ
{Dm7}Слышишь? Ветер шумит… Важно…

 

{D#}Важно, продолжать верит{Gm}ь в небеса,
{Dm}Важно, смотреть в родные глаза,
{D#}Важно, видеть эту счаст{Gm}ья слезу,
{Dm}Не нарочную-у,
Важно, видеть что-то хорошее, оу-е

Припев:

{D#}Видеть что-то хорошее, {Gm}оу-е, в себе, {Dm}важно!
{Dm}Не стоит прятать, не стоит, {D#}оу-е!
{D#}Видеть что-то хорошее, {Gm}оу-е, в себе и {Dm}в нас, важно!
{Dm}Не стоит прятать, даешь хоро{D#}шее на показ?!
{D#}А-а-а{Gm}!{ }{Dm}Важно!
{D#}А-а-а{Gm}!{ }{Dm}Важно!

Перебор(2 раза):
      D#maj               Gm                Dm
1|-----------------------------3---------------5------|
2|-----------7-----7-----------------------7-------7--|
3|-------6-------6----------3------------7---7---7----|
4|-----7---7---7---------5-------------7--------------|
5|--6-------------------------------5-----------------|
6|---------------------3------------------------------|

Показать табы

Аккорды для этой композиции

подобраны автором dragon

Раскрыть

Читать описание композиции

Видео-разбор

avatar

Send