T+ T-

Noize Mc - Лысый мужик в наколках

Загрузка...

Припев:

{Am}Ночью тебе не спится
{F}В голову мысли лезут
{C}Где то не спит убийца
{E}Хочет тебя зарезать
{Am}Прячешь лицо в подушку
{F}И отвлечешься только
{C}Опять перед глазами
{E}Лысый мужик в наколках
{Am}Аа-ее {F}лысый мужик в наколках.
{C}Аа-ее л{E}ысый мужик в наколках.

Куплет:

{Am}Девчонка домой возвращалась с гулянья
{F}Красивая походка привлекала внимание,
{C}Ночью темно возвращаться одной,
{E}Но какой то х на тачке подбросил домой
{Am}Но в подъезде за спиной кто то дверь вдруг захлопнул
{F}И сильною рукой хватает за жопу
{C}Э-хх-ее, Э-хх-ее
{E}Какой-то лысый дядя с ножом стоит в руке
{Am}Штаны расстегнул, прижимает к стене
{F}И-а-ээ раздался ее крик в тишине,
{C}Где вы соседи, спасите, на помощь!
{E}Ды х кто там вышел, сказали, ты гонишь
{Am}А лысый мужик, он шутить не привык,
{F}Убью говорит, прекращай этот крик
{C}Что же он хочет сволочь такая?
{E}Режет одежду, за сиськи хватает!
{Am}Но девушка знает запретный удар,
{F}Ногой по яйцам тыщ гада, и наповал
{C}Лысый упал, она наутек,
{E}Скорее в квартиру и дверь на замок

Припев:

{Am}Ночью тебе не спится
{F}В голову мысли лезут
{C}Где то не спит убийца
{E}Хочет тебя зарезать
{Am}Прячешь лицо в подушку
{F}И отвлечешься только
{C}Опять перед глазами
{E}Лысый мужик в наколках
{Am}Аа-ее{F} лысый мужик в наколках.
{C}Аа-ее{E} лысый мужик в наколках.

Куплет:

{Am}Сердце бьется все чаще и чаще
{F}Не может отдышаться,
{C}Предки на даче, вдруг кто-то стал в дверь стучаться
{E}Лысый в наколках это он пришел расквитаться
{Am}Ну ка открывай не то сейчас дверь сломаю
{F}Все равно тебя достану, все равно тебя поймаю
{C}Отвечала девчонка сквозь слезы, плача
{E}Ладно, сейчас выхожу рожа быдлячья!
{Am}Кухонный нож опустился на пальцы,
{F}Потом каблуком уебала по яйцам,
{C}Потом мясорубка разбилась об рожу
{E}И вилка воткнулась в мягкую кожу
{Am}Сковородкой с размаху, посыпались зубы
{F}Урка урод убирайся отсюда
{C}И напоследок удар табуреткой,
{E}Мозги разлетелись по лестничной клетки
Глаза закатались под коврик соседке!

{Am}Come on! Come on! Come on{F}! Come on! Киллер!
{C}Рычаги Машин вам представл{E}яют триллер!
{Am}Охуеть! Чувак попал в пер{F}епелет,
{C}Скорая помощь ни хуя не со{E}берет!
{Am}Лысый урод, исколотые рук{F}и,
{C}Готовый доебаться даже к с{E}амой стремной суке
{Am}Но бог точно есть — убийц{F}а наказан.
{C}Просьба к жильцам — уберит{E}е это мясо

Припев:

{Am}Аа-ее{F} лысый мужик в наколках.
{C}Аа-ее {E}лысый мужик в наколках.

Дополнение:

Проигрыш:

Am
----------------------------------
------------1---1---3---3---1---1-
---------2------------------------
-----2----------------------------
--0-------------------------------
----------------------------------

F
-------------------1---1---0------
------------1---1--------------1--
---------2------------------------
-----3----------------------------
--3-------------------------------
----------------------------------
С
----------------------------------
------------1---1---3---3---1---0-
---------0------------------------
-----2----------------------------
--3-------------------------------
----------------------------------
Е
----------------------------------
-----------0---0---3---3---0---1--
---------1------------------------
-----2----------------------------
--2-------------------------------
----------------------------------

Припев:

Am
----------------------------------
------------1---1---3---1---------
---------2------------------------
-----2----------------------------
--0-------------------------------
----------------------------------

F
-------------------1--------------
------------1---1----1------------
---------2------------------------
-----3----------------------------
--3-------------------------------
----------------------------------
С
----------------------------------
------------1---1---3---1---------
---------0------------------------
-----2----------------------------
--3-------------------------------
----------------------------------
Е
----------------------------------
-----------0---0---3---0----------
---------1------------------------
-----2----------------------------
--2-------------------------------
----------------------------------

Аккорды для этой композиции

подобраны автором lexist

Раскрыть
Загрузка...

Читать описание композиции

Видео-разбор

Комментарии

avatar

Send