T+ T-

Passenger - Let Her Go

Intro:
    D                C        D               Em    D                  C           D    Em
1|-----0-------------------0-----0----------------0-------0-------------------3p0-------0---|
2|--3-----3--1-------1--------3-----3--1------1-----3--3----3--1-------1----1------1h3--1---|
3|--------------0h2--2--2----------------0h2----0-----------------0h2--2--2-----------------|
4|-------------------3-------------------------------------------------3--------------------|
5|--------------------------------------------0-----------------------------------------0---|
6|----------------------------3---------------------3--3---------------------------3--------|
 
    D                C        D               Em     D                  C           D    Em
1|-----0-------------------0-----0----------------0--------0-------------------3p0-------0--|
2|--3-----3--1-------1--------3-----3--1------1------3--3----3--1-------1----1------1h3--1--|
3|--------------0h2--2--2----------------0h2----0------------------0h2--2--2----------------|
4|-------------------3--------------------------------------------------3-------------------|
5|--------------------------------------------0------------------------------------------0--|
6|--3-------------------------3----------------------3--3---------------------------3-------|

Показать табы

Chorus:

Well, you only need the {C}light when it’s burning low{G}
Only miss the {D}sun when it starts to sn{Em}ow
Only know you l{C}ove her when you let her go{G}{ }{D}
Only know you’ve been {C}high when you’re feeling low{G}
Only hate the {D}road when you’re missin’ ho{Em}me
Only know you l{C}ove her when you let her go{G}
{D}And you let her go

 

Instrumental:{ }{_Em}{ }{_C}{ }{_D}{ }{_Hm}
{ }{_Em}{ }{_C}{ }{_D}

Verse:

{Em}Staring at the bottom of your {C}glass
Hoping o{D}ne day you’ll make a dream {Hm}last
But dreams come sl{Em}ow and they go s{C}o fast{D}
You {Em}see her when you close your {C}eyes
Maybe {D}one day you’ll understand {Hm}why
Everything you {Em}touch surely d{C}ies{D}

Chorus:

Well, you only need the {C}light when it’s burning low{G}
Only miss the {D}sun when it starts to sn{Em}ow
Only know you l{C}ove her when you let her go{G}{ }{D}
Only know you’ve been {C}high when you’re feeling low{G}
Only hate the {D}road when you’re missin’ ho{Em}me
Only know you l{C}ove her when you let her go{G}{ }{D}

Verse:

{Em}Staring at the ceiling in the {C}dark
Same old {D}empty feeling in your {Hm}heart
‘Cause love comes sl{Em}ow and it goes s{C}o fast{D}
Well you {Em}see her when you fall as{C}leep
But never to {D}touch and never to {Hm}keep
‘Cause you loved her too {Em}much
And you dived to{C}o deep{D}

Chorus:

Well, you only need the {C}light when it’s burning low{G}
Only miss the {D}sun when it starts to sn{Em}ow
Only know you l{C}ove her when you let her go{G}{ }{D}
Only know you’ve been {C}high when you’re feeling low{G}
Only hate the {D}road when you’re missin’ ho{Em}me
Only know you l{C}ove her when you let her go{G}{ }{D}

Bridge:

And you let her {Em}go
Ooooo {C}ooooo {D}oooooo
And you let her {Em}go
Ooooooo {C}ooooo {D}ooooo
And you let her {Em}go{ }{C}{ }{D}{ }{Hm}

 

Interlude:{ }{_Em}{ }{_C}{ }{_D}

Chorus:

Well, you only need the {C}light when it’s burning low{G}
Only miss the {D}sun when it starts to sn{Em}ow
Only know you l{C}ove her when you let her go{G}{ }{D}
Only know you’ve been {C}high when you’re feeling low{G}
Only hate the {D}road when you’re missin’ ho{Em}me
Only know you l{C}ove her when you let her go{G}{ }{D}

Аккорды для этой композиции

подобраны автором dragon

Раскрыть

Читать описание композиции

Видео-разбор

Другие песни исполнителя

guest
0 комментариев
Inline Feedbacks
View all comments

Send
0
Would love your thoughts, please comment.x
()
x