T+ T-

Сергей Бабкин - Не больно

Куплеты играть таким перебором:
|------------------------------------------------------|
|--------3------------3-------------3-----------2------|
|------2---2--------0---0---------0---0-------0---0----|
|----3------3-----3-------3-----2-------2---2-------2--|
|--1-----------1-------------0------------0------------|
|------------------------------------------------------|
Припев играть таким перебором:
|-------------------------------------------------------|
|--------3------------1-------------3-----------2-------|
|------2---2--------0---0---------0---0-------0---0-----|
|----3------3------2-------2-----3-------3---2------2---|
|--1--------------3------------------------0------------|
|------------------------------3------------------------|

Показать табы для припева и куплетов

Куплет:

Ты, наверно, думаешь
Всё теперь получится.
Что сорвался сдуру я,
И опять буду мучится.
 
Давай, я покроюсь пятнами,
А ты задрожишь испуганно.
Станем до тошноты понятными
Для всех, но
Только не друг для друга.
 

Припев:

А вот и не больно.
А вот и не страшно.
Мы в целом довольны.
А это так важно.
Для нас.
 

Куплет:

Ты ещё не ушла на улице,
Я уже по тебе соскучился.
Дураки на ошибках учатся,
Мне б отучиться от одиночества.
 
Те, кто на фотоснимке целуются —
Так похожи на нас ещё.
Все желания наши сбудутся
Обязательно, мне так кажется.
 

Припев:

А вот и не больно.
А вот и не страшно.
Мы в целом довольны.
А это так важно.
 

Проигрыш:{ }{_A#}{ }{_C7}{ }{_Gm}{ }{_A}

 

Куплет:

Посмотри на меня, пожалуйста,
Мы должны ещё раз увидеться.
Делай всё, что тебе не нравится,
Можешь даже всерьез обидеться.
 
Давай затаим дыхание,
Посмотрим, кто дольше из нас
продержится.

Аккорды для этой композиции

подобраны автором dragon

Раскрыть

Читать описание композиции

Видео-разбор

guest
0 комментариев
Inline Feedbacks
View all comments

Send
0
Would love your thoughts, please comment.x
()
x