T+ T-

Валентин Стрыкало - Я стараюсь быть лучше

Вступление:
  C(8)      C/H        Am(5)          Dm(5)             G(3)
E-------------------------------------------------------------------------------
H---------------------------------------5--6--6--6--6---------------------------
G--------9---------9--------5--5-6-7-----7--7--7--7---------4--4--4-------------
D-----10-------10--------7----------------------------------------5--5--5-------
A--10-------10---------7----------------5-------------------5-------------------
E-8--------7----------5-----------------------------------3---------------------

2-я строчка в куплете: 
  Am(5)    G(3)          F                        C(8)                      G(3)
E----------5-------------3-----------------1-1-1-1-------------------------------------------------------                                          
H----------5-------------3-----------------1-1-1-1----------------------------------------------3--3--3--                                        
G----------5-------------4-----------------2-2-2-2--------------9----9---9----------------------4--4--4--
D---------------------------------------------------------------------10--10--10-------------------------
A------7------------5------------------3--------------------10------------------------------5------------
E--5---------3-----------------1---------------------8-------------------------------3------------------- 

Показать табы

Куплет 1:

Я просн{C}улся в со{Em}бственной луже, сре{Am}ди обшар{Dm}панных стен.{G}
Но я{Am} стараю{G}сь быть луч{F}ше каждый день,{C} каждый день.{G}
Меня{C} вечно то{Em}шнит или су{Am}шит, это плохо {Dm},но вместе с тем.{G}
Я {Am}стараюс{G}ь быть луч{F}ше каждый {C}день, каждый {G}день.

Припев:

{F}И видит ночь в моих г{Fm}лазах, всего лишь боль, все{C}го лишь страх {Am}
{F}Я так боюсь в ней что-то {Fm}упустить.{C}{ }{Em}{ }{Am}
{F}Сегодня утром та{Fm}ет снег, и я об{C}ычный человек{Am}
{F}Проснулся чтобы что-то {Fm}изменить{C}{ }{Em}{ }{Am}
{F}Проснулся чтобы что-то{Fm} изменить.{C}

Куплет 2:

{C}Я вчера{Em} в магазине{Am} игрушек показывал {Dm}школьникам член.{G}
{Am}Но я ст{G}араюсь быть{F} лучше каждый день,{C} каждый день.{G}
{C}Я соседс{Em}кому парню И{Am}люше продавать ст{Dm}ал амфетамин.{G}
{Am}Илюша не{G} хочет быть{F} лучше так хуй с ни{C}м, так хуй с ним.{G}

Припев:

{F}И видит ночь в моих г{Fm}лазах, всего лишь боль, все{C}го лишь страх {Am}
{F}Я так боюсь в ней что-то {Fm}упустить.{C}{ }{Em}{ }{Am}
{F}Сегодня утром та{Fm}ет снег, и я об{C}ычный человек{Am}
{F}Проснулся чтобы что-то {Fm}изменить{C}{ }{Em}{ }{Am}
{F}Проснулся чтобы что-то{Fm} изменить.{C}

Куплет 3:

{C}Я топчу тв{Em}ое сердце {Am}покуда, ты оду{F}маешься и поймешь.{G}
{Am}Что я посл{G}едний ублю{F}док, и уйдешь,{C} и уйдешь{G}
Я п{C}родал бы {Em}дьяволу ду{Am}шу, я продал бы дьяв{F}олу честь,{G}
Что{Am}бы стать {G}чуть чуть {F}лучше чем я есть, че{C}м я есть.{G}

Припев:

{F}И видит ночь в моих г{Fm}лазах, всего лишь боль, все{C}го лишь страх {Am}
{F}Я так боюсь в ней что-то {Fm}упустить.{C}{ }{Em}{ }{Am}
{F}Сегодня утром та{Fm}ет снег, и я об{C}ычный человек{Am}
{F}Проснулся чтобы что-то {Fm}изменить{C}{ }{Em}{ }{Am}
{F}Проснулся чтобы что-то{Fm} изменить.{C}

Аккорды для этой композиции

подобраны автором lexist

Раскрыть

Читать описание композиции

Видео-разбор

avatar

Send