T+ T-

Ария - Герой асфальта

Вступление:

5|------------------------------------------------------------------------------------------------------
6|-7-7-7-7-7-7-7-7-7-10-10-10-6-6-6-6-6-6-6-6-6-6-6-6-7-7-7-7-7-7-7-7-7-10-10-10-8-8-8-8-8-8-2-2-2-2-2-2 (2 раза)

5|-----10---9---8-9-----7---5-7-
6|-7-7----7---7-----5-5---5----- (4 раза) 

5|-5---4---7---4---
6|---2---2---2---2- (2 раза) 

5|-7-------5-------4-------2------- 
6|---2-2-2---2-2-2---2-2-2---2-2-2-
                        Gm
4|-----------------------5-
5|-7-------4-------2-----5-
6|---2-2-2---2-2-2---2-2-3-

6|-7-7-7-7-7-7-7-7-7-7-7-7-7-7-7-7---0-2-3-5-3-2-0-

Показать табы

Куплет:

Т{Em}вой дом стал для тебя тюрьмой,{D}{ }{C}
Д{C}ля тех, кто в доме, ты чужой.{C}{ }{D}
Ты{D} был наивен и ждал пере{Em}мен.

5|-0-2-3-5-3-2-0-
6|-0-2-3-5-3-2-0-

Показать табы

{Em}Ты ждал, что друг тебя поймет.{D}{ }{C}
П{C}оймет и скажет: «Жми вперед!»{C}{ }{D}
Н{D}о друг блуждал среди собственных с{Em}тен…

5|-0-2-3-5-3-2-0-
6|-0-2-3-5-3-2-0-

Показать табы

Припев:

{Am}Горел асф{Am}альт
{F}От солнц{Am}а и от звезд,
{Am}Горел ас{Am}фальт
{F}Под шу{E7}м колес,
{Am}Горел асф{Am}альт,
{F}Ты чувств{Am}овал тепло,
{Am}Горел ас{Am}фальт
{F}Снег{E7}ам назл{Am}о.

Куплет:

Т{Em}ы сам решил пойти на риск{D}{ }{C}
Н{C}икто не крикнул: «Берегись!»{C}{ }{D}
И {D}ты покрасил свой шлем в черный ц{Em}вет.

5|-0-2-3-5-3-2-0-
6|-0-2-3-5-3-2-0-

Показать табы

{Em}Как зверь мотор в ночи ревет{D}{ }{C}
Пу{C}стырь, разъезд и разворот…{C}{ }{D}
Ты {D}мстил за груз нелюбви прош{Em}лых лет

5|-0-2-3-5-3-2-0-
6|-0-2-3-5-3-2-0-

Показать табы

Припев:

{Am}Запел асф{Am}альт
{F}Ты слышал{Am} каждый звук,
{Am}Запел ас{Am}фальт
{F}Как сер{E7}дца стук,
{Am}Запел асф{Am}альт,
{F}Ты был {Am}его герой,
{Am}Так пел ас{Am}фальт
{F}Пел {E7}за спи{Am}ной.

Куплет:

Бы{Em}л миг — ты верил в знак удач.{D}{ }{C}
Ве{C}дь ты был молод и горяч.{C}{ }{D}
Но {D}твой двойник мчал навстречу т{Em}ебе.

5|-0-2-3-5-3-2-0-
6|-0-2-3-5-3-2-0-

Показать табы

{Em}Он был свободен как и ты.{D}{ }{C}
Ни{C}кто не крикнул: «Тормози!»{C}{ }{D}
Тако{D}й приказ неизвестен су{Em}дьбе.

5|-0-2-3-5-3-2-0-
6|-0-2-3-5-3-2-0-

Показать табы

Припев:

{Am}Горел асф{Am}альт
{F}От сбитых с {Am}неба звезд,
{Am}Горел асф{Am}альт
{F}Под шум {E7}колес,
{Am}Кричал асф{Am}альт,
{F}Ты был его{Am} герой.
{Am}Кричал асф{Am}альт,
{F}Кричала{E7} бол{Am}ь…

Аккорды для этой композиции

подобраны автором Dima

Раскрыть

Читать описание композиции

Видео-разбор

guest
0 комментариев
Inline Feedbacks
View all comments

Send
0
Would love your thoughts, please comment.x
()
x