T+ T-

Би-2 - Мой рок-н-ролл

Интро:
         F                 G                Am              Am
1|--------0----------------0----------------0----------------0---------
2|------0---0---0--------0---0---0--------0---0---0--------0---0---0---
3|----5-------5---5----5-------5---5----5-------5---5----5-------5---5-
4|--3------------------------------------------------------------------
5|------------------------------------0----------------0---------------
6|-------------------3-------------------------------------------------

Показать табы

 

Проигрыш:
1|--8--10-12---10-12-10-12---17-15-12-19--15-12-15--12-10--

1|--8--7-8-7--0-3-5--3-0--1--3--7--

Показать табы проигрыша

Куплет:

{F}И то, что было на{G}бело, отк{Am}роется потом,
{F}Мой рок-н-ролл — это не {G}цель и даже не с{Am}редство.
{F}Не новое, а {G}заново — о{Am}дин и об одном,
{F}Дорога — мой дом, и для {G}любви это не {Am}место.

Припев:

{F}Прольются все слова, как {G}дождь, и {Am}там, где ты меня не ждешь,
{F}Ночные ветры прине{G}сут тебе прохла{Am}ду.
{F}На наших лицах бе{G}з ответа лишь {Am}только отблески рассвета,
{F}Того, где т{G}ы меня не ж{Am}дешь.

Проигрыш:
1|--8-7-3-5--8-7-3-0--8-7-3-5---7--8-7-5---3-5--17--

Показать табы проигрыша

Куплет:

{F}А дальше — это гл{G}авное, по{Am}хожий на тебя,
{F}В долгом пути я зап{G}лету волосы л{Am}ентой.
{F}И, неспособный н{G}а покой, я з{Am}нак подам тебе рукой,
{F}Прощаясь с тобой{G}, как будто с {Am}легедой.
И…

Припев:

{F}Прольются все слова, как {G}дождь, и {Am}там, где ты меня не ждешь,
{F}Ночные ветры прине{G}сут тебе прохла{Am}ду.
{F}На наших лицах бе{G}з ответа лишь {Am}только отблески рассвета,
{F}Того, где т{G}ы меня не ж{Am}дешь.

Проигрыш:
1|--8-7-3-5--8-7-3-0--8-7-3-5---7--8-7-5--

1|--8-7-3-5--8-10-8-10-12~--13-12--10--7-3-5--

Показать табы проигрыша

Аккорды для этой композиции

подобраны автором dragon

Раскрыть

Читать описание композиции

Видео-разбор

avatar

Send