T+ T-

Би-2 - Последний герой

Загрузка...

В куплете играть так:
   Em
1|--------------------------------------------|
2|-----5--5------5--5-------5--5--------5-----|
3|--------------------------------------------|
4|-2-2-------4-4-------5--5----------5-----5--|

   Am                                    
1|-----5--5------5--5-------5--5--------5-----|
2|--------------------------------------------|
3|-2-2-------4-4-------5--5----------5-----5--|

Показать табы

Куплет:

Я б{Em}ольше не играю сам своей душой,
Как{Am}ая есть, кому-нибудь сгодится.
Но {Em}медь – не золото, и твой герой —
Пос{Am}ледний, кем бы ты могла гордиться.

Табы в припеве:
   Em
2|-5-0-5--4-0-4--3-0-3---2-1-0--|

   Am
1|-5-0-5--4-0-4--3-0-3---2-1-0--|

Показать табы

Припев:

Остаться в жив{Em}ых, отчаянный псих.
Не свой не чуж{Am}ой, последний герой.

Проигрыш (2 раза):{ }{_Em}{ }{_Em}{ }{_F}

Куплет:

Все {Em}то немногое, на четное не ставь
Когд{Am}а любовь и слезы не дороже хлеба.
И ка{Em}жется что до земли добраться вплавь
Возм{Am}ожно тем, кто по воде уходит в небо.

Табы в припеве:
   Em
2|-5-0-5--4-0-4--3-0-3---2-1-0--|

   Am
1|-5-0-5--4-0-4--3-0-3---2-1-0--|

Показать табы

Припев:

Остаться в жив{Em}ых, отчаянный псих.
Не свой не чуж{Am}ой, последний герой.

Аккорды для этой композиции

подобраны автором dragon

Раскрыть
Загрузка...

Читать описание композиции

Видео-разбор

Комментарии

avatar

Send