T+ T-

Lumen - Гореть

Вступление:
1|-----------------|------------------|-----------------|-----------------
2|-----6-----3-----|-4------3-----3---|-----6-----3-----|-4-----3-----3---
3|---3-----3-----3-|------3-----3---3-|---3-----3-----3-|-----3-----3---3-
4|-----------------|------------------|-3-----3-----3---|---3-----3-------
5|-----------------|------------------|-----------------|-----------------
6|-3-----3-----3---|----3-----3-------|-----------------|-----------------

1|-----1-----------|------------------|-----------------|-----------------
2|-----------3-----|-4------3-----3---|-----------------|-----------------
3|---3-----3-----3-|------3-----3---3-|-----------------|-----------------
4|-1-----1-----1---|----1-----1-------|---5-3---5-3---5-|---5-3---5-3---5-
5|-----------------|------------------|-3------3----3---|-3-----3-----3---
6|-----------------|------------------|-----------------|-----------------

Показать табы

Куплет:

З{Gm}ачем крич{F}ать, когда никто не с{D#}лышит
О чём мы гово{Cm}рим.
М{Gm}не кажет{F}ся, что мы давно не ж{D#}ивы,
Зажглись и потихоньку дого{Cm}рим.
К{D#}огда нас мн{Gm}ого начинается пож{F}ар,
И города похожи н{D#}а крематорий и базар.
И все привыкли ни{Gm}чего не замечать.
К{F}огда тебя не слышат, {D#}для чего кричать?

Припев:

{Cm}Мы можем помол{Gm}чать, мы можем {A#}петь,
Стоять или бе{F}жать, но всё равно го{Cm}реть.
Огромный синий {Gm}кит порвать не может {A#}сеть,
Сдаваться или {F}нет, но всё-равно го{D#}реть.

Куплет:

{Gm}И снова не{F}бо замыкает на се{D#}бя
Слова и прово{Cm}да.
{Gm}И снова с {F}неба проливаются на {D#}нас
Ответы и во{Cm}да.
{D#}И если {Gm}ты вдруг начал что-то пони{F}мать,
И от проз{D#}рений захотелось заорать,
Давай кричи, но тебя {Gm}могут не понять,
ник{F}то из них не хочет {D#}ничего менять!

Припев:

{Cm}Мы можем помол{Gm}чать, мы можем {A#}петь,
Стоять или бе{F}жать, но всё равно го{Cm}реть.
Огромный синий {Gm}кит порвать не может {A#}сеть,
Сдаваться или {F}нет, но всё-равно го{D#}реть.

 

М{Cm}ы можем помол{Gm}чать, мы можем {A#}петь,
Стоять или бе{F}жать, но всё равно го{Cm}реть!
Гори, но не сжи{Gm}гай, иначе скучно {A#}жить,
Гори, но не сжи{F}гай. Гори, чтобы све{D#}тить…

Проигрыш:{ }{_D#}{ }{_Gm}{ }{_F}{ }{_D#}
{ }{_Gm}{ }{_F}{ }{_D#}

Аккорды для этой композиции

подобраны автором dragon

Раскрыть

Читать описание композиции

Видео-разбор

Другие песни исполнителя

Сид и Нэнси
Между строчек…
Небеса
avatar

Send