T+ T-

Lumen - Сид и Нэнси

Вступление:
1|----------------------------------------------------
2|--------0-----1--0-----0----------0-----1--0-----0--
3|----------------------------------------------------
4|--2--2-----2--------2-------0--0-----0--------0-----
5|----------------------------------------------------
6|----------------------------------------------------
                                                        
1|----------------------------------------------------
2|--------0-----1--0-----0----------------------------
3|----------------------------------2--0--------2--0--
4|----------------------------0--0--------1--1--------
5|--3--3-----3--------3-------------------------------
6|----------------------------------------------------

Показать табы

Куплет:

{Em}Вены до{D}рог, дороги {C}вен
Машинкой раз{D}мажет по кир{H7}пичности с{Em}тен,
Обломки им{D}перии, элементы сис{C}тем,
И тот, кто был {D}всем — тот {H7}станет ни{Em}кем.

Припев:

{Em}Но мы с то{D}бою будем {C}вместе
Как Сид и {D}Нэнси, {H7}Сид и {Em}Нэнси.
И ни за {D}что не доживем до {C}пенсии,
Как Сид и {D}Нэнси, {H7}Сид и…

 

Проигрыш(4 раза):{ }{_Em}{ }{_D}{ }{_C}{ }{_D}{ }{_H7}

 

{Em}Дорожки {D}пыли, пыль до{C}рожек,
Белый — с{D}мелый, {H7}хитрый — {Em}тоже,
Покатились гла{D}за по бледной {C}коже,
У меня есть {D}ножик, {H7}где-то {Em}ножик.

Припев:

{Em}Но мы с то{D}бою будем {C}вместе
Как Сид и {D}Нэнси, {H7}Сид и {Em}Нэнси.
И ни за {D}что не доживем до {C}пенсии,
Как Сид и {D}Нэнси, {H7}Сид и…

Куплет:

{Em}Героиновый {D}рай — и они там вдво{C}ем,
И мы, на{D}верное, ту{H7}да попа{Em}дем
По дорогам {D}вен, по дорожкам {C}пыли,
Ведь мы так лю{D}били, мы {H7}были…

Припев:

{Em}Мы были с {D}тобой все время {C}вместе
Как Сид и {D}Нэнси, {H7}Сид и {Em}Нэнси.
И ни за {D}что бы не дожили до {C}пенсии,
Как Сид и {D}Нэнси, {H7}Сид и…

Аккорды для этой композиции

подобраны автором dragon

Раскрыть

Читать описание композиции

Видео-разбор

Другие песни исполнителя

Гореть
Небеса
Между строчек…
avatar

Send