T+ T-

Noize Mc - Романс

Загрузка...

Вступление:{ }{_Em}{ }{_Am}{ }{_C}{ }{_H7}

1|--------------|--------------------|--------------------|------------------|
2|--------------|--------------------|--------------------|------------------|
3|----4---4--4--|-----12----12---12--|----11----11----11--|-----7----7----7--|
4|--------------|--------------------|--------------------|------------------|
5|---2---2------|---10----10---------|---9-----9----------|---5-----5--------|
6|--0---0---0---|--0-----0-----0-----|--0-----0-----0-----|--0-----0-----0---|


1|----8---8---8--|----8---8---8--|----7----7----7--|----7----7----7--|
2|---------------|---------------|---0----0----0---|---0----0----0---|
3|---5---5---5---|---5---5---5---|-----------------|-----------------|
4|---------------|---------------|-----------------|-----------------|
5|--0---0---0----|--0---0---0----|-----------------|-----------------|
6|---------------|---------------|--8----8----8----|--7----7----7----|

Показать табы

Куплет (Лейла):

{Em}Орфей, послушай меня
Орфей, мне снился сон
Ты в нём обличье менял
Был не ты, а он
{Am}Чужой, незнакомый, холодный,
Надменный, далёкий. {C}Не ты,
А копия {H7}копии копии копии

 

{Em}Неуютно здесь одной
Под луной бледной,
Плохо сплю,
Когда не под одним с тобой пледом
{Am}Орфей, послушай меня
Вызов мой низкий
{C}Из ядовитых семян {H7}первые ползут ростки

 

{Em}Разветвляясь под землёй
К солнцу тянутся
Станут чёрною листвой
Трава завянет вся
{Am}Мне тревожно здесь одной
Под луной мутной
{C}Что-то там пошло не так
{H7}За окном утро.

 

{Em}Без тебя трудно
Ночь так шла долго
Хоть круши утварь,
Хоть в окна завой волком.
{Am}Новый день, welcome
Ещё спит город,
{C}Шелестит ветер
{H7}И сигнал скорой.

Припев (Лейла):

{Em}Отдалённый вой сирен,
Звуки проезжаю{Am}щих машин,
{C}Тишина. И с{H7}нова
{Em}Отдалённый вой сирен,
Звуки проезжаю{Am}щих машин,
{C}Тишина.{H7}

Куплет (Noize MC):

{Em}Нормально я так им раздал всем
В осадок выпали все там
Вот это баттл так баттл,
А не этот их псевдотеатр
{Am}На стандартных пресетах
Сегодня в моём куплете — завтра в га{C}зетах
Куда до такого в{H7}сей этой попсе там
О чём беседа

 

{Em}Нормально я так им раздал всем
Но это только начало
Пока я там с ними бодался
Кифара долго молчала
И {Am}я свои чары еще не явил
В мере полной пока
Так что же будет с толпою
Ког{C}да на них выльет не только лирика
{H7}А еще и звука река

 

{Em}Смекаешь? Смекай.
Тут речь не о деньгах, но
Пускай будут, пускай
В карманах драхмы, драхмы
{Am}Драхмы, драхмы кубарем катится
С горы ваш царёк дряхлый
{C}Увы и ах, но карма
{H7}Может порою фортуну трахнуть

 

{Em}Лимузин и личный водитель
Для меня и моей Эвридики
Парит прямо в центре Сити
Пять звёзд покажутся общежитием
{Am}Кто такого достиг в мои годы ещё
Ну-ка покажите мне
Я {C}сам бы загуглил, но не могу, блин,
{H7}По причине весьма уважительной.

Припев (Noize MC) (2 раза):

{Em}Телефон остался в машине,
Я немного пьян после пати,
Сообщения не пиши мне,
Я сейчас не смогу прочитать их.
{Am}Я сегодня в умате,
Так всегда, когда после стресса выпьешь
{C}И, ваще, пора спать,
Ведь завтра съ{H7}ёмки клипа,
Серьёзный кипишь

Припев (Лейла) (2 раза):

{Em}Отдалённый вой сирен,
Звуки проезжаю{Am}щих машин,
{C}Тишина. И с{H7}нова
{Em}Отдалённый вой сирен,
Звуки проезжаю{Am}щих машин,
{C}Тишина.{H7}

Аккорды для этой композиции

подобраны автором dragon

Раскрыть
Загрузка...

Читать описание композиции

Видео-разбор

Комментарии

avatar

Send