T+ T-

Twenty One Pilots - Holding On To You

Загрузка...

Intro: {_G#m}{ }{_F#}{ }{_E}{ }{_H} — to play 2 times

Verse 1

{G#m}I’m taking over my body, b{F#}ack in control, no more shotty,
{E}I bet a lot of me was lost,{H} ‘t’s uncrossed and ‘I’s undotted,
{G#m}I fought it a lot and it se{F#}ems a lot like flesh is all I g{E}ot,
Not anymor{H}e, flesh out the door, swat,

 

{G#m}I must’ve forgot, you c{F#}an’t trust me,
I'{E}m open a moment and close when you show it,
{H}Before you know it I’m lost at sea,
{G#m}And now that I write and think a{F#}bout it,
And the story{E} unfolds,
You should take my l{H}ife, you should take my soul.

Interlude

e|--14------------|-----------------|-------------14--|-----------------|
B|-------14---16--|-----------------|---16---14-------|---16---14-------|
G|--11------------|---15---13---11--|-------------11--|-------------16--| X2
D|-------11---13--|-----------------|---13---11-------|---13---11-------|
A|----------------|---13---11---9---|-----------------|-------------14--|
E|----------------|-----------------|-----------------|-----------------|

Show tabs

Pre Chorus

{E}You are surr{G#m}ounding {H}all my {F#}surrou{C#m}ndings,
Sounding down the {E}mountain r{H}ange of {F#}my lef{C#m}t-sid{E}e brain,
You ar{G#m}e surroun{H}ding all{F#} my sur{C#m}roundings,
{E}Twisting th{G#m}e kaleidos{H}cope be{F#}hind bot{C#m}h of my eyes.

Chorus

e|--14------------|-----------------|-------------14--|-----------------|
B|-------14---16--|-----------------|---16---14-------|---16---14-------|
G|--11------------|---15---13---11--|-------------11--|-------------16--| X2
D|-------11---13--|-----------------|---13---11-------|---13---11-------|
A|----------------|---13---11---9---|-----------------|-------------14--|
E|----------------|-----------------|-----------------|-----------------|

Show tabs

{G#m}{ }{F#}{ }{E} And i’ll be Holdi{H}n’ on to you
{G#m}{ }{F#}{ }{E} And i’ll be Holdi{H}n’ on to you
Break:
{_G#m}{ }{_F#}{ }{_E}{ }{_H} x2

Verse 2

{G#m}Remember the moment you know ex{F#}actly where you’re going,
‘Cause t{E}he next moment, before you know it,
{H}Time is slowing and it’s frozen still,
And {G#m}the window sil{F#}l looks really nice, right?
{E}You think twice about your l{H}ife, it probably happens at night,
{G#m}Right? Fight it, t{F#}ake the pain, ignite it,
Tie{E} a noose around your mind{H} loose enough to breathe fine and tie it,
{G#m}To a tree, tell it, «{F#}You belong to me,
This ain’t{E} a noose, this is a leash,
And I ha{H}ve news for you, you must {E}obey me.»

Pre Chorus

{E}You are surr{G#m}ounding {H}all my {F#}surrou{C#m}ndings,
Sounding down the {E}mountain r{H}ange of {F#}my lef{C#m}t-sid{E}e brain,
You ar{G#m}e surroun{H}ding all{F#} my sur{C#m}roundings,
{E}Twisting th{G#m}e kaleidos{H}cope be{F#}hind bot{C#m}h of my eyes.

Bridge, to play 10 times

{_G#m}{ }{_F#}{ }{_H}{ }{_E}
{G#m}Entertain my faith{F#}
{H}Entertain my faith{E}

Rap Solo Part

{G#m}Lean wit it, rock wit it,
{F#}When we gonna stop with it,
{E}Lyrics that mean nothing, we were {H}gifted with thought,
Is{G#m} it time to move our feet to an {F#}introspective beat,
It ain’t th{E}e speakers that bump hearts,
it’s o{H}ur hearts that make the beat.

Chorus

e|--14------------|-----------------|-------------14--|-----------------|
B|-------14---16--|-----------------|---16---14-------|---16---14-------|
G|--11------------|---15---13---11--|-------------11--|-------------16--| X2
D|-------11---13--|-----------------|---13---11-------|---13---11-------|
A|----------------|---13---11---9---|-----------------|-------------14--|
E|----------------|-----------------|-----------------|-----------------|

Show tabs

{G#m}{ }{F#}{ }{E} And i’ll be Holdi{H}n’ on to you
{G#m}{ }{F#}{ }{E} And i’ll be Holdi{H}n’ on to you
{G#m}{ }{F#}{ }{E} And i’ll be Holdi{H}n’ on to you
{G#m}{ }{F#}{ }{E} And i’ll be Holdi{H}n’ on to you

Аккорды для этой композиции

подобраны автором lexist

Раскрыть
Загрузка...

Читать описание композиции

Видео-разбор

Комментарии

avatar

Send